Guitaretab - guitar tabs
Song name
# A B C D E F G H I J K L M N O P Q R S T U V W X Y Z

Misc Computer Games - Dragonball Z - Budokai 3 tab

-----------------------------------------------------------------
DBZBUDOKAI 3 THEME  
-----------------------------------------------------------------
Tuning: Standard
e|-------------------------------14-16-14------------------------|
B|--17--17--17--17b19--12--14-17----------17-16-14-14-12-17-17--|
G|---------------------------------------------------------------|
D|---------------------------------------------------------------|
A|---------------------------------------------------------------|
E|---------------------------------------------------------------|

e|---------14-16p14h16p14-------------------------------14-16-|
B|14-17-17------------------17--17--1717b19--12--14-17-------|
G|------------------------------------------------------------|
D|------------------------------------------------------------|
A|------------------------------------------------------------|
E|------------------------------------------------------------|

e|19p16-14--------17-16------------------------------------------|
B|---------17--17-------17-19-17~\-------------------------------|
G|---------------------------------------------------------------|
D|---------------------------------------------------------------|
A|---------------------------------------------------------------|
E|---------------------------------------------------------------|

	0:31
[ Tab from: http://www.guitaretab.com/m/misc-computer-games/91832.html ]
e|---------------------------------------------------------------|
B|------10-12------12-10-8h10p8-----------10-12---12-15--10------|
G|-9-12-------9-9---------------9~\--9-12------9-9---------12-9~\|
D|---------------------------------------------------------------|
A|---------------------------------------------------------------|
E|---------------------------------------------------------------|

e|/12------------------------------------------------------------|
B|----12-10--10-12-12~-15~14~12~\--------10-12-----12-10-8h10p8--|
G|---------12----------------------9-12-------9-9---------------9|
D|---------------------------------------------------------------|
A|---------------------------------------------------------------|
E|---------------------------------------------------------------|

	0:51

e|---------------------------------------------------------------|
B|-12-12-12-12-12-12-12-12-13--12--10-8-10-8-10-8-10-812p10p8-12|
G|---------------------------------------------------------------|
D|---------------------------------------------------------------|
A|---------------------------------------------------------------|
E|---------------------------------------------------------------|

e|-------------------------------------12-11-12-15--14-14-14-12-|
B|-12-12-12-12-12-12-12-12-13-12-13-15--------------------------|
G|--------------------------------------------------------------|
D|--------------------------------------------------------------|
A|--------------------------------------------------------------|
E|--------------------------------------------------------------|

e|11-11-11~\-----------------------------------------------------|
B|---------------------------------------------------------------|
G|---------------------------------------------------------------|
D|---------------------------------------------------------------|
A|---------------------------------------------------------------|
E|---------------------------------------------------------------|

Repeat this and as far as the solo, it will be a long time if I even do it.


| /  slide up
| \  slide down
| h  hammer-on
| p  pull-off
| ~  vibrato
Related for Dragonball Z - Budokai 3 tab