Song name
# A B C D E F G H I J K L M N O P Q R S T U V W X Y Z

Misc Computer Games - Sonic Adventure 3 - Ice Cap Zone tab

intro:


Guitar 1:

e|---------------------------------------------------------------------------|
B|---8------------6----8------6----------------------------------------------|
G|---8--------5---7----8------7----------------------------------------------|
D|---10---8---6---8----10--8--8----------------------------------------------|
A|---------------------------------------------------------------------------|
E|---------------------------------------------------------------------------|


Guitar 2:  

e|---------------------------------------------------------------------------|
B|---------------------------------------------------------------------------|
G|---------------------------------------------------------------------------|
D|---------------------------------------------------------------------------|
A|---------------------------------------------------------------------------|
E|--8-8--8-8-6-6--6-6-4-4--4-4-3-3--3-3--8-8-8-8--11-11-11-11--6(x8)---------|




verse:

Guitar 1:

e|------20--18--10-11-13---------20--18-10-11--------------------------------|
B|-----------------------11--------------------------------------------------|
G|--17------------------------17---------------------------------------------|
D|---------------------------------------------------------------------------|
A|---------------------------------------------------------------------------|
E|---------------------------------------------------------------------------|


Guitar 2:

e|---------------------------------------------------------------------------|
B|---------------------------------------------------------------------------|
G|---------------------------------------------------------------------------|
D|---------------------------------------------------------------------------|
A|---------------------------------------------------------------------------|
E|--8-8-8-8-8--4-4-4-4-4--6-6-6-6-6--3-3-3-3-3-------------------------------|
Tap to rate this tab
 
# A B C D E F G H I J K L M N O P Q R S T U V W X Y Z