Song name
# A B C D E F G H I J K L M N O P Q R S T U V W X Y Z

Misc Computer Games - Sonic The Hedgehog - Green Hill Zone tab

e---------------------------------------------------------|
B---------------------------------------------------------|
G---------------------------------------------------------|
D--9--7--9--7--9-7-10--9--7-----7--9--10--7--9--10--10--9-|
A---------------------------------------------------------|
E---------------------------------------------------------|

e--8-5---8-7-8-7---------12-10----8-7-8-7---|
B----------------8----10------------------8-|
G-------------------------------------------|
D-------------------------------------------|
A-------------------------------------------|
E-------------------------------------------|

e--8-5---8-7-8-7---------5---5-3---5-3-----|
B----------------8-----6---6-----------1---|
G------------------------------------------|
D------------------------------------------|
A------------------------------------------|
E------------------------------------------|

e--8-5---8-7-8-7---------12-10----8-7-8-7-3-|
B----------------8----10--------------------|
G-------------------------------------------|
D-------------------------------------------|
A-------------------------------------------|
E-------------------------------------------|

e--8-5---8-7-8-7---------5---5-3---5-3-----0--|
B----------------8-----6---6-----------1-1--3-|
G---------------------------------------------|
D---------------------------------------------|
A---------------------------------------------|
E---------------------------------------------|

e------0-----------------------|
B----1-----------5-4-------4-3-|
G--2---------5-5---------5-----|
D------------------------------|
A------------------------------|
E------------------------------|
Tap to rate this tab
# A B C D E F G H I J K L M N O P Q R S T U V W X Y Z