Song name
# A B C D E F G H I J K L M N O P Q R S T U V W X Y Z

Misc Computer Games - Super Metroid-brinstar - Red Soil Area tab

Tabbed by Alfred (captainolimar@msn.com) contact for suggestions/requests/whatever

myspace: /allforalfred

have yet to see this tab out there, yet this is my favorite music from my favorite game 
all time, so i figured i should tab it

this is my first tab ever, so be gentle with feedback...otherwise, it should be pretty accurate.


tuning: standard


part 1, intro

e]----11----9--------------11----9-------------------9-------------11---9------------|
b]--9------9--------------9-----9-------------9-11--9-------------9----9-------------|
g]-8------8--------------8----8-------------8------8-------------8----8--------------|
d]-----------------------------------------------------------------------------------|
a]-----------------------------------------------------------------------------------|
E]-----------------------------------------------------------------------------------|

~~~~~~~~~~~~~~~~~~~~~~~~~~~~~~~~~~~~~~~~~~~~~~~~~~~~

part 1-a, background

e]---11-----9--------------11----9-------------11-----9-------------11---9-----------|
b]--9------9--------------9-----9-------------9------9-------------9----9------------|
g]-8------8--------------8-----8-------------8------8-------------8----8-------------|
d]-----------------------------------------------------------------------------------|
a]-----------------------------------------------------------------------------------|
E]-----------------------------------------------------------------------------------|

continuous

~~~~~~~~~~~~~~~~~~~~~~~~~~~~~~~~~~~~~~~~~~~~~~~~~~~~

part 2, played over part 1-a

e]-11--------------------------------------------------------------------------------|
b]-----------------11-9-11--------------9--------------------------------------------|
g]----------------------------------------8-11---------------13----------------------|
d]---------------------------------------------------------------13------------------|
a]-----------------------------------------------------------------------------------|
E]-----------------------------------------------------------------------------------|


e]-11--------------------------------------------------------14--11------------------|
b]-----------------11-9-11--------------9--------------------------------------------|
g]----------------------------------------8-11---------------------------------------|
d]-----------------------------------------------------------------------------------|
a]-----------------------------------------------------------------------------------|
E]-----------------------------------------------------------------------------------|

~~~~~~~~~~~~~~~~~~~~~~~~~~~~~~~~~~~~~~~~~~~~~~~~~~~~

part 3, also played over part 1-a, but not over part 2

e]-11-9-----------------------------------------(9)----------------------------------|
b]------11-9-11----9--------------------------9--------------------------------------|
g]--------------11---8-------------------8-11----------------------------------------|
d]-------------------------------------8---------------------------------------------|
a]-----------------------------------------------------------------------------------|
E]-----------------------------------------------------------------------------------|

e]-11-9-----------------------------------------(9)----------------------------------|
b]------11-9-11----9-----------------------11-9--------------------------------------|
g]--------------11---8-------------------8-------------------------------------------|
d]-------------------------------------8---------------------------------------------|
a]-----------------------------------------------------------------------------------|
E]-----------------------------------------------------------------------------------|

e]----------------------------------------------9------------------------------------|
b]----9-11---9-11-9---------------9-11---9-11-9--------------------------------------|
g]-11------8--------8----------11------8---------------------------------------------|
d]-----------------------------------------------------------------------------------|
a]-----------------------------------------------------------------------------------|
E]-----------------------------------------------------------------------------------|

e]-11-9------------------------------------------------------------------------------|
b]------11-9-11----11-9--------------------------------------------------------------|
g]--------------11-------11-8-11----8------------------------------------------------|
d]-------------------------------11--------------------------------------------------|
a]-----------------------------------------------------------------------------------|
E]-----------------------------------------------------------------------------------|

so there you have it...from what i can tell, this should be pretty much spot on...if 
let me know and ill do what i can to fix it.

enjoy!
Tap to rate this tab
 
# A B C D E F G H I J K L M N O P Q R S T U V W X Y Z