Song name
# A B C D E F G H I J K L M N O P Q R S T U V W X Y Z

Misc Computer Games - Katamari Damacy Theme tab

from the game, just kinda trying it...
it was my first tab, so please, if you think it's messed up, I'd like to see you do better!
~Sev~

e|------------------------------------------|
B|------------------------------------------|
G|------------------------------------------|
D|--2-4-6-7-6-2---2---0-2-0-----------------|
A|-2------------2---2-------4-2-------------|
E|------------------------------------------|

e|------------------------------------------|
B|------------------------------------------|
G|--2-4-6-7-6-2---2---0-2-0-----------------|
D|-2------------2---2-------4-2-------------|
A|------------------------------------------|
E|------------------------------------------|

e|------------------------------------------|
B|------------------------------------------|
G|------------------------------------------|
D|--2-4-6-7-6-2---2---0-2-0-----------------|
A|-2------------2---2-------4-2-0---0-2-----|
E|--------------------------------4---------|
Tap to rate this tab
 
# A B C D E F G H I J K L M N O P Q R S T U V W X Y Z