Song name
# A B C D E F G H I J K L M N O P Q R S T U V W X Y Z

Misc Computer Games - Deja Vu - Toilet tab

Deja Vu - Toilet

CONTACT:

www.myspace.com/iceclimbersrocks

iceclimbersrocks@hotmail.com

e------------------------------------------------------------------------------|
B---------8---------------8--------------8-------------------------------------|
G-------8---8-10--------8---8-10-------8---8-10v--10-8----8-10v--10-8----8-----|
D----10--------------10-------------10-----------------10-------------10-------|
A-10--------------10-------------10--------------------------------------------|
E------------------------------------------------------------------------------|


e----------------------|-------------------------------------------------------|
B----------------------|-------------11v--13-11-----------------11v--13-11-----|
G-10/11-10-8-----------|--------8---------------13-12v-----8---------------13--|
D--------------10-8-10-|-----10---10--------------------10---10----------------|
A----------------------|-x2----------------------------------------------------|
E----------------------|-------------------------------------------------------|


e------------------------------------------------------------------------------|
B---------------------8---------------8---------------8------------------------|
G-12v--10h12--------8---8-10--------8---8-10--------8---8-10v--10-8----8-10v---|
D----------------10--------------10--------------10-----------------10---------|
A-------------10--------------10--------------10-------------------------------|
E------------------------------------------------------------------------------|


e------------------------------------------------------------------------------|
B------------------------------------------------------------------------------|
G--10-8----8-------------------------------------------------------------------|
D-------10---------------------------------------------------------------------|
A------------------------------------------------------------------------------|
E------------------------------------------------------------------------------|
Tap to rate this tab
# A B C D E F G H I J K L M N O P Q R S T U V W X Y Z