Song name
# A B C D E F G H I J K L M N O P Q R S T U V W X Y Z

Misc Computer Games - Castlevania - Stage 2 tab

Castlevania - Stage 2

CONTACT:

www.myspace.com/iceclimbersrocks

iceclimbersrocks@hotmail.com


Lead Part:

e--------------------------------------|-------------------------------|-------|
B--------------------------------------|-------------------------------|-------|
G-----7----5---4------------7----5---4-|-----------2-----4-------2-----|-------|
D---7----7---5------------7----7---5---|---------3-----5-------3-------|-------|
A-5-----------------3-5-5--------------|---3-5-5-----5-----5-5-------3-|-x2----|
E-----------------5--------------------|-5-------------------------5---|-------|


e-------------------------------------------------------------------------------------|
B---10----9h10p9--------10----9h10p9--------------------------------------------------|
G-7-------------10----7-------------10------------------------------------------------|
D---------------------------------------10-10-9-9-8--7-7-----------------10-10-9-9-8--|
A--------------------------------------------------------11-11-10--8------------------|
E--------------------------------------------------------------------10---------------|


e------------------------------------------------------------------------------|
B------------------------------------------------------------------------------|
G----------------------7-7-7-6--7-7-7-6----------------------------------------|
D-7-7--------------------------------------------------------------------------|
A-----11-11-10--8--------------------------------------------------------------|
E------------------------------------------------------------------------------|


Harmony Part:

e-10-------8-10-10-----8-10-10|-------5-----7-------5-----|--------------------|
B-------10----------10--------|-----6-----8-------6-------|--------------------|
G-----------------------------|-7-7-----7-----7-7-------5-|--------------------|
D-----------------------------|-----------------------7---|--------------------|
A-----------------------------|---------------------------|-x2-----------------|
E-----------------------------|---------------------------|--------------------|


e------------------------------------------------------------------------------|
B------------------------------------------------------------------------------|
G---7----6-5-4--7h9p7-------7----6-5-4--7h9p7----------------------------------|
D-7--------------------8---7-------------------8---10-10-9-9-8--7-7------------|
A-------------------------------------------------------------------11-11-10---|
E------------------------------------------------------------------------------|


e------------------------------------------------------------------------------|
B------------------------------------------------------------------------------|
G------------------------------------------------------------------------------|
D------------------------------------------------------------------------------|
A-8----------------------------------------------------------------------------|
E---10---7-7-7--5---7-7-7---5--------------------------------------------------|
Tap to rate this tab
# A B C D E F G H I J K L M N O P Q R S T U V W X Y Z