Song name
# A B C D E F G H I J K L M N O P Q R S T U V W X Y Z

Misc Computer Games - Hero And Darkness - Darkness Lair tab

Darkness' Lair tab
Hero and Darkness
---------------------------
Tuning: EADGBe
Main Riff(Church bell):

E-------------|
B-------------|
G-0-----------|
D--2-3-0 (x19-|
A-------------|
E-------------|

Riff 2(Strings)

E-15~-17-19-20~-17-15----|
B--------------------17~-|
G------------------------|
D------------------------|(play over 3,4,and 5 times of main.)
A------------------------|
E------------------------|

Riff 3(strings):

E-12p10p8-12p10-13~-17p15p13-15p13-20~\---------------------------------|
B-----------------------------------------------------------------------|
G-----------------------------------------------------------------------|
D------------------------------------------------------- (play over ----|
A-----------------------------------------------------------------------|
E-----------------------------------------------------------------------|

Riff 4(strings):

E-10------12-----10-------|
B-----12~----13~--12~-----|
G-------------------------|
D-------------------------| (played over the four last loops of main riff.)
A-------------------------|
E-------------------------|

Main riff 2:

E-0-------|
B---1-3-0-|
G---------|
D---------| (x4 played before ending)
A---------|
E---------|

Ending:

E-1-1-1-1-1-1~----|
B-----------------|
G-----------------|
D-----------------| Played once
A-----------------|
E-----------------|

Main riff played by Guitar 1
Riffs 2-4 played by Guitar 2
Main riff 2 and ending also played by Guitar 1
Harp played by Guitar 3(N/A) You cannot play the harp part
--------------------------------------------------------------------------------
Tabbed by: Me!(Black Amendment)
Thank you!
go to http://witch-chao.tripod.com/heroanddarkness/ for MP3! Go to music page. The 
for riff 3 is not available, but when you listen to the song, you'll know if you count. Speed 
also become clear when you listen to it. Other then that, it's 100% accurate. Enjoy!
Tap to rate this tab
 
# A B C D E F G H I J K L M N O P Q R S T U V W X Y Z