Song name
# A B C D E F G H I J K L M N O P Q R S T U V W X Y Z

Misc Computer Games - Zeldas Lullaby tab

----------------------------------------------------------------------------
			     Zelda's Lullaby
----------------------------------------------------------------------------
Tabbed by:Blake Chiasson
Email:spyder_kingman125@yahoo.com

Im 100% percent sure on this......if any thing i messed up please message me at myspace

www.myspace.com/ionlywantyouandyoualone

/ = slide

Tuning:EADGBe

e|--------------------6--4-------------------------------------6--4-----//
B|----4------4------4------4-------------------4------4------4------5---//
G|--5---3--5---3--5----------6--5--3---1--3--5---3--5---3--5------------//
D|----------------------------------/-----------------------------------//
A|----------------------------------/-----------------------------------//
E|----------------------------------/-----------------------------------//

e|--9/11---9-8-9-8---9--7-6-7-6----7--6--4----4---7---11--------------------//
B|-----------------9------------7-----------4-------------------------------//
G|-----------------------------------/--------------------------------------//
D|-----------------------------------/--------------------------------------//
A|-----------------------------------/--------------------------------------//
E|-----------------------------------/--------------------------------------//

e|--------------------6--4-------------------------------------6--4-----//
B|----4------4------4------4-------------------4------4------4------5---//
G|--5---3--5---3--5----------6--5--3---1--3--5---3--5---3--5------------//
D|----------------------------------/-----------------------------------//
A|----------------------------------/-----------------------------------//
E|----------------------------------/-----------------------------------//

e|--9/11---9-8-9-8---9--7-6-7-6----7--6--4----4---7---11--------------------//
B|-----------------9------------7-----------4-------------------------------//
G|-----------------------------------/--------------------------------------//
D|-----------------------------------/--------------------------------------//
A|-----------------------------------/--------------------------------------//
E|-----------------------------------/--------------------------------------//
Tap to rate this tab
# A B C D E F G H I J K L M N O P Q R S T U V W X Y Z