Song name
# A B C D E F G H I J K L M N O P Q R S T U V W X Y Z

Misc Computer Games - Megaman - Storm Eagle tab

my guitar is tuned down to D
D C G F A D
 intro


D||--------------------------|-----------------------|
A||--------------------------|-----------------------|
F||--------6--------6-----4--|-----------------------|
C||--------6--------6-----4--|-----------------------|
G||--4--4-----4--4-----4-----|-----------------2--3--|
D||--------------------------|--------------4--------|

  
--------------------------|-----------------------||
--------------------------|-----------------------||
--------6--------6-----4--|-----------------------||
--------6--------6-----4--|-----------------------||
--4--4-----4--4-----4-----|-----------------2--3--||
--------------------------|--------------4--------||





lead

D||----------------------------|----------------16------------|
A||--14----------------14--16--|--17---16---14----------------|
F||----------------17----------|------------------------------|
G||----------------------------|------------------------------|
C||----------------------------|------------------------------|
D||----------------------------|------------------------------|

   
--17------16p-14-16------14p-12-|--11-----------------------|
--------------------------------|----------14---------------|
--------------------------------|-------------12h-13--------|
--------------------------------|---------------------------|
--------------------------------|---------------------------|
--------------------------------|---------------------------|

             
           
----------------------------|----------------16------------|
--14--L--L------13--14--16--|--17p--16p--14----------------|
----------------------------|------------------------------|
----------------------------|------------------------------|
----------------------------|------------------------------|
----------------------------|------------------------------|


       
--17------16p-14-16------14p-12-|--11--------16--------|
--------------------------------|----------------------|
--------------------------------|----------------------|
--------------------------------|----------------------|
--------------------------------|----------------------|
--------------------------------|----------------------|


   
--17------17--21--19--21------|--20----18--------20------|
------17----------------------|--------------21----------|
------------------------------|--------------------------|
------------------------------|--------------------------|
------------------------------|--------------------------|
------------------------------|--------------------------|


                   bend release
--21--------23--------|--23---------21-----------|
----------------------|--------------------------|
----------------------|--------------------------|
----------------------|--------------------------|
----------------------|--------------------------|
----------------------|--------------------------|


  
--17------17--21--19--21------|--20----18--------20----21p-19-|
------17----------------------|--------------21---------------|
------------------------------|-------------------------------|
------------------------------|-------------------------------|
------------------------------|-------------------------------|
------------------------------|-------------------------------|



--21----------------------------|--------------------------------|
----------21p-17-21------17p-16-|--17------14p-12-14-------------|
--------------------------------|-------------------------13p-11-|
--------------------------------|--------------------------------|
--------------------------------|--------------------------------|
--------------------------------|--------------------------------|


      
-----------------------------|-----||
-----------------------------|-----||
--13-------------------------|-----||
----------14p-13-14------11--|-----||
-----------------------------|-----||
-----------------------------|-----||






Tablature Legend
----------------
L - tied note
x - dead note
g - grace note
(n) - ghost note
> - accentuded note
NH - natural harmonic
AH - artificial harmonic
TH - tapped harmonic
SH - semi harmonic
PH - pitch harmonic
h - hammer on
p - pull off
b - bend
br - bendRelease
pb - preBend
pbr - preBendRelease
brb - bendReleaseBend
\n/ - tremolo bar dip
\n - tremolo bar dive
-/n - tremolo bar Release up
/n\ - tremolo bar inverted dip
/n - tremolo bar return
-\n - tremolo bar Release down
S - shift slide
s - legato slide
/ -  slide into from below or out of upwards
\ -  slide into from above or out of downwards
~ - vibrato
W - wide vibrato
tr - trill
TP - tremolo picking
T - tapping
S - slap
P - pop
< - fade in
^ - brush up
v - brush down
Tap to rate this tab
# A B C D E F G H I J K L M N O P Q R S T U V W X Y Z