Song name
# A B C D E F G H I J K L M N O P Q R S T U V W X Y Z

Misc Computer Games - Top Gear Overdrive Theme tab

Ok not many people know about this band because they didn't release an album, i don't 
But if you have the nintendo 64 game called "Top gear overdrive" you should know that 
is about 6 songs on it...e.g
Everything, Hollow eyes, Appropriate, Mir, Come alive and Threshold, all from the band 
GrindStone. Well if you love those songs like i do i am working out some of e'm So have 
with "everything".
Tuning:eBGDAE
key:
b-bend
~b-vabrato bend

These are all pretty much double power chords
Intro:(from here to...
e|-----------------/-------------------------|
B|-----------------/-------------------------|
G|-----------------/-------------------------|
D|-10-10-10--9-9-9-/-10-10-10--9-9-9---------|
A|-10-10-10--9-9-9-/-10-10-10--9-9-9---------|
E|-8--8--8---7-7-7-/-8--8--8---7-7-7-----~b3-|
This bend is only played in the chorus   ^^^^
e|-----------------/---------------------|
B|-----------------/---------------------|
G|-----------------/---------------------|
D|-10-10-10--9-9-9-/-5-5-5--6-6-6--------|
A|-10-10-10--9-9-9-/-5-5-5--6-6-6--------|
E|-8--8--8---7-7-7-/-3-3-3--4-4-4----~b3-|
..here)Same as the bend here only played in chorus

Then it starts going like this when he starts to sing...
"Breakin' my, all alone..."

Verse:(in this verse you have to palm mute it so you can hear it just lightly)*that goes 
all the versus...
e|*-----------------/-----------------|
B|*-----------------/-----------------|
G|*-----------------/-----------------|
D|*-10-10-10--9-9-9-/-10-10-10--9-9-9-|
A|*-10-10-10--9-9-9-/-10-10-10--9-9-9-|
E|*-8--8--8---7-7-7-/-8--8--8---7-7-7-|

e|*-----------------/--------------|
B|*-----------------/--------------|
G|*-----------------/--------------|
D|*-10-10-10--9-9-9-/-5-5-5--6-6-6-|
A|*-10-10-10--9-9-9-/-5-5-5--6-6-6-|
E|*-8--8--8---7-7-7-/-3-3-3--4-4-4-|

Chorus: "BREAKIN' MY, EVERYTHING'A, LORD I KNOW"..etc...
e|-----------------/-------------------------|
B|-----------------/-------------------------|
G|-----------------/-------------------------|
D|-10-10-10--9-9-9-/-10-10-10--9-9-9---------|
A|-10-10-10--9-9-9-/-10-10-10--9-9-9---------|
E|-8--8--8---7-7-7-/-8--8--8---7-7-7-----~b3-|

e|-----------------/---------------------|
B|-----------------/---------------------|
G|-----------------/---------------------|
D|-10-10-10--9-9-9-/-5-5-5--6-6-6--------|
A|-10-10-10--9-9-9-/-5-5-5--6-6-6--------|
E|-8--8--8---7-7-7-/-3-3-3--4-4-4----~b3-|
 practically thats all ive gotten so far...

If ya want more, feel free to msg me or even join my group...
"The forgotten souls"

...yours truly silent breath...
Tap to rate this tab
# A B C D E F G H I J K L M N O P Q R S T U V W X Y Z