Song name
# A B C D E F G H I J K L M N O P Q R S T U V W X Y Z

Misc Country - Wild Side Of Life tab

Help us improve GuitareTab! Take a short survey!
-------------------------------------------------------------------------------
	            'Wild Side Of Life' by Status Quo
-------------------------------------------------------------------------------
Tabbed by: Chris Melia
Email: chrisamplifythis@hotmail.co.uk
Tuning: Standard

Intro:

e|---------------------------------------------------------------------------|
B|---8-8---8-8---------------------------------------------------------------|
G|---7-7---7-7---5-----5-5-8-5-5-5-5-5-6-6-6-6-3-5-3-3-----------------------|
D|---5-5-5-5-5-5-5-5-5-5-3-3-3-3-3-3-3-6-6-6-6-3-5-3-3-3-5-3-3-3-5-3-3-3-5etc|*
A|-------------3---3-3-------------------------------1-1-1-1-1-1-1-1-1-1-1---|
E|---------------------------------------------------------------------------|
         pm       pm pm                                   
 
* continue boogie shuffle into first verse

| /  slide up
| \  slide down
| h  hammer-on
| p  pull-off
| ~  vibrato
| +  harmonic
| x  Mute note
===============================================================================

Related for Wild Side Of Life tab