Song name
# A B C D E F G H I J K L M N O P Q R S T U V W X Y Z

Misc Irish - Furniture tab

Intro:
e: |------------------------|--------------|
B: |------------------------|--------------|
G: |------------------------|--------------|
D: |------------------------|--------------| *5
A: |-------8-7------3h5-3h5-|-------8-7----|
E: |-5-5-5-----5------------|-5-5-5-----5--|

then:
e: |------------------------|-------------|
B: |------------------------|-------------|
G: |------------------------|-------------|
D: |------------------------|-------------|
A: |-------8-7------3h5-3h5-|-------8-7~~-|
E: |-5-5-5-----5------------|-5-5-5-------|

Verse:
same sorta riff with just the bass

Chorus:
e: |-------------------------|---------------------|
B: |-------------------------|---------------------|
G: |-------------------------|---------------------|
D: |-------------------------|-----------------5-7-|
A: |-------8-7-------3h5-3h5-|-------8-7-------3-5-|
E: |-5-5-5-----5-5-5---------|-5-5-5-----5-5-5-----|

e: |-------------------------|---------------------|
B: |-------------------------|---------------------|
G: |-------------------------|---------------------|
D: |-------------------------|-----------------7-5-|
A: |-------8-7-------3h5-3h5-|-------8-7-------5-3-|
E: |-5-5-5-----5-5-5---------|-5-5-5-----5-5-5-----| 
Tap to rate this tab
# A B C D E F G H I J K L M N O P Q R S T U V W X Y Z