Song name
# A B C D E F G H I J K L M N O P Q R S T U V W X Y Z

Misc Performance - Oscar Dronjak - Guitar Solo Live In Bilbao tab

Check at http://www.youtube.com/watch?v=DiSH4k0bkn0 in order to hear this solo.

                  |    |       |------
                  |    |       |
                  |----|       |---
                  |    |       |
                  |    |AMMER  |ALL

Tabbed By:ELIAS STASI

Artist:HammerFall

Song:Guitar solo by Oscar Dronjak live in Bilbao (10-02-07)

Tuning:Standard

Tab Key: pm=palm mute, /= slide up, \=slide down


Lets start:


e--------------------------------------|
B--------------------------------------|
G--------5-4-2--------5-4-2-3/--7-3-2--|
D--------5-4-2--------5-4-2-3/--7-3-2--|
A--3-3-3-3-2-0--3-3-3-3-2-0-1/--5-1-0--|
E--------------------------------------|x2


e-------------------------------------------------------------------------|
B------10/-12-10-11-10-----7/-9-7-8-7-6----5/-7-5-6-5-4----3/-5-3-4-3-2pm-|
G-9/-12---------------6/-9-------------4/-7------------2/-5---------------|
D-------------------------------------------------------------------------|
A-------------------------------------------------------------------------|
E-------------------------------------------------------------------------|


e-------------------------------|
B--7-6-4-7-6-4-7-6-4-7-6-4-3-4--|
G-------------------------------|
D-------------------------------|
A-------------------------------|
E-------------------------------|x5


e--------4/---|
B--3-4--------|
G------5------|
D-------------|
A-------------|
E-------------|


e--15-13-12-15-13-12-15-13-12-14-13-12/--|
B----------------------------------------|
G----------------------------------------|
D----------------------------------------|
A----------------------------------------|
E----------------------------------------|


e--14-17-15-14-17-15-14-17-15-14-17-15-14/--|
B-------------------------------------------|
G-------------------------------------------|
D-------------------------------------------|
A-------------------------------------------|
E-------------------------------------------|


e--16-19-17-16-19-17-16-19-17-16-19-17-16--|
B------------------------------------------|
G------------------------------------------|
D------------------------------------------|
A------------------------------------------|
E------------------------------------------|


e----------|
B----------|
G--4/-8-8--|
D--4/-8-8--|
A--2/-6-6--|
E----------|


e-----------|
B-----------|
G-----------|
D-----------|
A--6-7-7-6--|
E-----------|x8


e-------------|
B-------------|
G-------------|
D-------------|
A--5-3-4-2-1--|
E-------------|

(Fury of the wild intro x2)
e-----------------------------------------------|
B-----------------------------------------------|
G-----------------------------------------------|
D-------------------9-7-6-------------------9-7-|
A-7-6-7-6-7-6-7--6-7------7-6-7-6-7-6-7--6-7----|
E-----------------------------------------------|

e--------------------------------|
B--------------------------------|
G--------------------------------|
D-------------------9-7-6--------|
A-7-6-7-6-7-6-7--6-7-------6-7-5-|
E--------------------------------|
(Fury of the wild intro x2)


e---------------------------------|
B---------------------------------|
G---------------------------------|
D--9-9-7-7-6-7-7-5-5-6-5-5-3-3-4--|
A---------------------------------|
E---------------------------------|x2


e-----
B-----
G--5--
D--5--
A--3--
E-----(let the last note to play)


                      THE    END!!!!!!!!
Tap to rate this tab
# A B C D E F G H I J K L M N O P Q R S T U V W X Y Z