Song name
# A B C D E F G H I J K L M N O P Q R S T U V W X Y Z

Misc Performance - Michael Angelo Batio - Sweep Picking Exercises tab

----------------------------------------------------------------------------
			     BRILLIANT SWEEPS
----------------------------------------------------------------------------
Tabbed by: Bakzee(Cleverouz)

Tuning:Standard

e|-----------------8h12p8----------------------------8h12-----|
B|-------------10------------10--------------------10---------|
G|----------9--------------------9--------------9-------------|
D|------10--------------------------10------10----------------|
A|--12----------------------------------12--------------------|
E|------------------------------------------------------------|

e|--17p14----------------------------------14h17p14-----------------|
B|----------15--------------------------15--------------15----------|
G|--------------14------------------14----------------------14------|
D|------------------16----------16------------------------------16--|
A|----------------------17--17--------------------------------------|
E|------------------------------------------------------------------|

e|--16p12-------------------------------------12h16p12----------|
B|----------12-----------------------------12--------------12------|
G|--------------13---------------------13----------------------13--|
D|------------------14-------------14------------------------------|
A|----------------------14-----14----------------------------------|
E|--------------------------0--------------------------------------|

e|--------------12h15----------------------10h14p10-------------|
B|----------12----------12--------------10--------------10------|
G|------12------------------12------11----------------------11--|
D|--14--------------------------12------------------------------|
A|--------------------------------------------------------------|
E|--------------------------------------------------------------|

e|------------8h12p8-----------------7h10p7------------|
B|---------8------------8-----------7------------7-----|
G|------9------------------9-----7------------------7--|
D|--10------------------------9------------------------|
A|-----------------------------------------------------|
E|-----------------------------------------------------|

e|-----------5h8p5-----------------2h7p2---------|
B|--------5-----------5-----------4--------2-----|
G|-----5-----------------5-----4--------------4--|
D|--7-----------------------4--------------------|
A|-----------------------------------------------|
E|-----------------------------------------------|

| h  hammer-on
| p  pull-off
============================================================================
Tap to rate this tab
# A B C D E F G H I J K L M N O P Q R S T U V W X Y Z