Song name
# A B C D E F G H I J K L M N O P Q R S T U V W X Y Z

Misc Performance - Kiss - Ace Frehley Guitar Solo Live tab

KISS - Ace Frehley Guitar Solo - Alive!

Eb|----------------------------------------------------------------|
Bb|----------------------------------------------------------------|
Gb|----------------------------------------------------------------|
Db|-------7------7------5----5h7p5---------------------------------|
Ab|-0--0----0-0----0-0--------------7-6-5--3h5p3----3----------0---|
Eb|-----------------------------------------------5----3-3-3-3-----|

repete 2x /\

Eb|-------------------------------------------------------|
Bb|-------------------------------------------------------|
Gb|-------------------------------------------------------|
Db|-5h7p5-------------------------------------------------|
Ab|--------7-6-5--3h5p3----3----------0-------------------|
Eb|----------------------5----3-3-3-3---------------------|

repete 2x /\

Eb|--------------|
Bb|--------------|
Gb|--------------|
Db|-5h7p5--------|
Ab|--------7-6-5-|
Eb|--------------|

repete 2x /\


repete xx \/
Eb|--------------|-----|------|
Bb|--------------|-----|------|
Gb|--------------|-----|------|
Db|-5h7p5--------|-----|---7~-|
Ab|--------5h7p5-|-----|---7~-|
Eb|--------------|-----|---5~-| 

Eb|-------5------7-------9--------10--------12--------13---|
Bb|-----5------7-------9-------10--------12--------13------|
Gb|--7b-----9b-----11b-----12b-------14b-------15b---------|
Db|--------------------------------------------------------|
Ab|--------------------------------------------------------|
Eb|--------------------------------------------------------|

 			 
Eb|---------15-------16~~|----------17-------17-----|
Bb|------15-------16~~---|-------17----20p17--------|
Gb|--17b------18b~~------|---19b--------------------|
Db|----------------------|--------------------------|
Ab|----------------------|--------------------------|
Eb|----------------------|--------------------------|

    
Eb|---------17---------|----------17-17-17-17---|---------17~~~~\-|
Bb|------17----20p17---|-------20-20-20-20------|------20~~~~~~~\-|
Gb|--19b---------------|----19-19-19-19---------|--19b~~~~~~~~~~\-|
Db|--------------------|------------------------|-----------------|
Ab|--------------------|------------------------|-----------------|
Eb|--------------------|------------------------|-----------------|
Tap to rate this tab
# A B C D E F G H I J K L M N O P Q R S T U V W X Y Z