Song name
# A B C D E F G H I J K L M N O P Q R S T U V W X Y Z

Misc Performance - James Hetfield - Waylon Jennings - Dont You Think This Outlaw Bits Done Got Out Of Hand tab

-------------------------------------------------------------------------------
			     Outlaw Bit - James Hetfield
-------------------------------------------------------------------------------
Tabbed by:dillon1022

I am a huge Hetfield fan. I saw him play it live via youtube and worked out the rest by 
and i'm pretty sure it's correct.
James did this cover during St. Anger, so the guitar is down real low.
This is my first tabbing, judge fairly.


Tuning:drop D and half-step

intro- repeat several times
e|----------------------------------|
B|----------------------------------|
G|----------------------------------|
D|-3p0-3/5-5-5--x2---6\5-5-5-5---x2-|
A|----------------------------------|
E|----------------------------------|

  main riff
e|--------------------------------------------------------------------------|
B|--------------------------------------------------------------------------|
G|--------------------------------------------------------------------------|
D|6/5--x--5--5--3--0------11/10--x--10--10--7--0----11/10--x--10--101010--- |
A|6/5--x--5--5--3--0------11/10--x--10--10--7--0----11/10--x--10--101010--- |
E|6/5--x--5--5--3--0------11/10--x--10--10--7--0----11/10--x--10--101010----|
                .  . x5                     .  . x3
e|----------------------------------------|
B|----------------------------------------|
G|----------------------------------------|
D|6/5--x--5--5--3--0-----6/5--x--5--555---|
A|6/5--x--5--5--3--0-----6/5--x--5--555---|
E|6/5--x--5--5--3--0-----6/5--x--5--555---|
                .  . x3
after this play 1st part twice

chorus (play each note in triplets several times)Played during solo
e|-----------------------|
B|-----------------------|
G|-----------------------|
D|---5----10----x--------|
A|---5----10----x--------|
E|---5----10----5--------|

That's it. this is a waylon jennings cover, and hetfield rammed some metal into it and 
a great job of it, as he always does.

************************************
| .   palm mute
| /   slide up
| \   slide down
| h   hammer-on
| p   pull-off
| ~   vibrato
| +   harmonic
| x   Mute note
| b   Bend
| pb  Pre-bend
| br  Bend release
| pbr Pre-bend release
| brb Bend release bend

************************************
Tap to rate this tab
# A B C D E F G H I J K L M N O P Q R S T U V W X Y Z