Misc Performance - Kirk Hammett - Live Solo 2010 tab

irk Hammett Solo 2010


e |---------------------------|
B |---------------------------|
G |-------0-------0------0----|
D |----2-------4-------5------|
A |---------------------------|
E |--0------0-------0---------|

e |-----------------------------|
B |-------------------------0---|
G |-------0-------0-------------|
D |----2--------4-------5-------|
A |-3-------5--------7----------|
E |-----------------------------|

e |---------------------------|
B |---------------------------|
G |-------0-------0------0----|
D |----2-------4-------5------|
A |---------------------------|
E |--0------0-------0---------|

e |-----------------------------|
B |-------------------------0---|
G |-------0-------0-------------|
D |----2--------4-------5-------|
A |-3-------5--------7----------|
E |-----------------------------|

e |----3-----------3----------------------3---------|
B |----3--------------3----------------------3------|
G |----4-------4---------4------4----4---------4----|
D |----5---------------------------5-------------5--|
A |----5--------------------------------------------|
E |----3----3----------------3----------------------|

e |--0----------0-----------------0-------|
B |--3---3--------3--------3--------3-----|
G |--4------4--------4--------4-------4---|
D |--4-------------------4----------------|
A |--0------------------------------------|
E |---------------------------------------|

e |--0----------0--------------0--------|
B |--0------------0--------------0------|
G |--4---4----------4-----4--------4----|
D |--3------3----------3----3--------3--|
A |--2----------------------------------|
E |-------------------------------------|

e |-------------------------------------------------------|
B |-------------------------------------------------------|
G |-----------2-5-2-3-2---2-3--2-3-2----------------------|
D |--2--2-3-5-----------5------------5-3-2----------------|
A |-------------------------------------------------------|
E |-------------------------------------------------------|


e |----3-----------3----------------------3---------|
B |----3--------------3----------------------3------|
G |----4-------4---------4------4----4---------4----|
D |----5---------------------------5-------------5--|
A |----5--------------------------------------------|
E |----3----3----------------3----------------------|

e |--0----------0-----------------0-------|
B |--3---3--------3--------3--------3-----|
G |--4------4--------4--------4-------4---|
D |--4------------------4-----------------|
A |--0------------------------------------|
E |---------------------------------------|

e |--0----------0--------------0---------|
B |--0------------0--------------0-------|
G |--4---4----------4-----4--------4-----|
D |--3------3----------3----3--------3---|
A |--2-----------------------------------|
E |--------------------------------------|

e |-------------------------------------------------------|
B |-------------------------------------------------------|
G |-----------2-5-2-3-2---2-3--2-3-2----------------------|
D |--2--2-3-5-----------5------------5-3-2----------------|
A |-------------------------------------------------------|
E |-------------------------------------------------------|

e |----3-----------3----------------------3---------|
B |----3--------------3----------------------3------|
G |----4-------4---------4------4----4---------4----|
D |----5---------------------------5-------------5--|
A |----5--------------------------------------------|
E |----3----3----------------3----------------------|

e |--7---------7-----------------7--------|
B |--7-----------7-----------------7------|
G |--8------8------8-----8---8-------8----|
D |--9---------------------9-----------9--|
A |--9------------------------------------|
E |--7---7-------------7------------------|

e |--2---------2----------------2--------|
B |--2-----------2----------------2------|
G |--3------3------3----3---3-------3----|
D |--4--------------------4-----------4--|
A |--4-----------------------------------|
E |--2---2------------2------------------|

e |--0----------------------------------|
B |--0---------0---------------0--------|
G |--2-----------2---------------2------|
D |--0--------------0--------------0----|
A |--2---2----------------2-------------|
E |--3------3----------------3----------|

e |--0---------0------------------0-------|
B |--3---3-------3------------------3-----|
G |--0--------------0------------------0--|
D |--0------------------------------------|
A |--2-----------------2-----2------------|
E |--3-----3-------------3-----3----------|

e |--2---2----2------2-3h-2---2-----2------2-3h-2--|
B |--3-----------3---------------------3-----------|
G |--2-----2-------2-------------2-------2---------|
D |--0---------------------------------------------|
A |------------------------------------------------|
E |------------------------------------------------|

e |----0---0---0----0----0----0----0----0----0----0---0----0---0-|
B |--5---7---8---10---12---13---12---10---12---10---8---10---8---|
G |--------------------------------------------------------------|
D |--------------------------------------------------------------|
A |--------------------------------------------------------------|
E |--------------------------------------------------------------|

    ----0---0---0---0---0---0---0---0---0----0---0----0---0----0--|
    --7---8---7---5---7---5---5---8---5---10---5---12---5---13----|
    --------------------------------------------------------------|
    --------------------------------------------------------------|
    --------------------------------------------------------------|
    --------------------------------------------------------------|

    ---0---0---0----0---0---0---0---0---0---0---0---0---0---0---0---0--0-|
    -5---12--5---10---5---8---5---7---5---8---5---8---5---8---5---5---5--|
    ---------------------------------------------------------------------|
    ---------------------------------------------------------------------|
    ---------------------------------------------------------------------|
    ---------------------------------------------------------------------|

    --0----0-|
    -5-----0-|
    -------0-|
    -------2-|
    -------2-|
    -------0-|
Tap to rate this tab
 
# A B C D E F G H I J K L M N O P Q R S T U V W X Y Z