Song name
# A B C D E F G H I J K L M N O P Q R S T U V W X Y Z

Misc Performance - John 5 - Betcha Cant Play This 1 tab

-------------------------------------------------------------------------------
Betcha Canít Play This #1 Ė John 5
-------------------------------------------------------------------------------
Tabbed by: Jordan
Email: jordanlenz95@gmail.com

Tuning:

e|----------------------15---------------------------------------|
B|----------------10/15----17p15----15b--------------------------|
G|-------------11----------------16------------------------------|
D|----------12---------------------------------------------------|
A|-----9/12------------------------------------------------------|
D|-9p12----------------------------------------------------------|

e|----------------------15----------17b--------------------------|
B|----------------10/15----17p15---------------------------------|
G|-------------11----------------16------------------------------|
D|----------12---------------------------------------------------|
A|-----9/12------------------------------------------------------|
D|-9p12----------------------------------------------------------|

e|----------------------15----------22b--------------------------|
B|----------------10/15----17p15---------------------------------|
G|-------------11----------------16------------------------------|
D|----------12---------------------------------------------------|
A|-----9/12------------------------------------------------------|
D|-9p12----------------------------------------------------------|


************************************

| /   slide up
| \   slide down
| h   hammer-on
| p   pull-off
| ~   vibrato
| +   harmonic
| x   Mute note
| b   Bend
| pb  Pre-bend
| br  Bend release
| pbr Pre-bend release
| brb Bend release bend

************************************
Tap to rate this tab
# A B C D E F G H I J K L M N O P Q R S T U V W X Y Z