Song name
# A B C D E F G H I J K L M N O P Q R S T U V W X Y Z

Misc Praise Songs - I Saw The Light tab

This is  very easy song. It's an old gospel hymn. This is my first tab. This is the picking version.

First
1-------------------------------------
2-------------------------------------
3---------------0---4----------------0
4---0---0---2------------0---0---2----
5-------------------------------------
6-------------------------------------
Second
1-------------------------------------------
2-------------------------------------------
3---2--0-------0---0---2---0-------0--------
4----------2-------------------2-------2---0
5-------------------------------------------
6-------------------------------------------
repeat 

repeat first

Third
1------------------------------------
2---3-3--5--3------------------------
3--4-----------4--0---2---4-4---2---0
4------------------------------------
5------------------------------------
6------------------------------------

Fourth
1------------------------------------
2------------------------------------
3---4-4--2--4--2-0-----4-4--2--4--2-0
4------------------------------------
5------------------------------------
6------------------------------------
repeat second and first and third

Strum a G at the end to finish.
Tap to rate this tab
# A B C D E F G H I J K L M N O P Q R S T U V W X Y Z