Song name
# A B C D E F G H I J K L M N O P Q R S T U V W X Y Z

Misc Praise Songs - How Great Thou Art tab

Solo or refrain, give this a try.

 THEN SINGS MY SOUL,My saviour ... .. . 

e|-----------------------------------|
B|------3-1-3-1----------------------|
G|-----3--------3-0--3-3-2-----0-----|
D|-3-3-------------3---------3--3-0--|
A|-------------------------3---------|
E|-----------------------------------|
                               
e|------------------------------------|
B|-------3-1-3-1-------------1-3-4----|
G|-----3---------3-0---3-2-3------2-3-|
D|-3-3---------------3----------------|
A|------------------------------------|
E|------------------------------------|

            ..     ...HOW GREAT THOU ART,
                   HOW GREAT THOU ART.     
Tap to rate this tab
 
# A B C D E F G H I J K L M N O P Q R S T U V W X Y Z