Song name
# A B C D E F G H I J K L M N O P Q R S T U V W X Y Z

Misc Praise Songs - Best Songs For Mass tab

Help us improve GuitareTab! Take a short survey!
--------------------------------------------------------------------------
			   Best Songs For Mass
--------------------------------------------------------------------------
Tabbed by:  Don King Lim
Email:   dk_lim0507@yahoo.com


CFC\SFC songs 


Tuning: Standard


--------------------------------------------------------------------------
			  Entrace : Pag-Aalaala
--------------------------------------------------------------------------


intro:   Waltz   Tempo:  3\4


    CM7      D       Bm7 Em7   Am         Am7    D     D7  G

e|---------------7-8-10-------7-8-7-------------------------------------|
B|------8-8--10------------------------10--8--8--10----8----------------|
G|--9-------------------------------------------------------------------|
D|----------------------------------------------------------------------|
A|----------------------------------------------------------------------|
E|----------------------------------------------------------------------|

                                                           Bayan muli ...  

   to complete Please use the Songbook ,89 (Gold)



--------------------------------------------------------------------------
	              Entrace : Putihin ang Panginoon
--------------------------------------------------------------------------


intro:   Waltz   Tempo:  3\4

       Em        A7       D     A7    Em    A7       D

e|--0-2-3--0-----------0------------------------------------------------|
B|------------3--2--3-----3-----2-----0------2--------------------------|
G|----------------------------------------------------------------------|
D|----------------------------------------------------------------------|
A|----------------------------------------------------------------------|
E|----------------------------------------------------------------------|

                                                   Purihin ang ......

  to complete Please use the Songbook ,196 (Old)


--------------------------------------------------------------------------
	             Offertory : Take and Receive
--------------------------------------------------------------------------

Intro:

           GM7    Em7 A   D           A7          A7             D 

e|----0-2-2--3-2------------2---------0-------0---0----------------------|
B|--4-------------3-3--3-3--------3---------2-----2----------------------|
G|-----------------------------2----------0-------0----------------------|
D|------------------------------------------------2----------------------|
A|-----------------------0------------0-------0---0----------------------|
E|-----------------------------------------------------------------------|

                                                      Take and re......

 to complete Please use the Songbook ,116 (Gold)

-------------------------------------------------------------------------
	             Offertory : Paghahandog ng Sarili
-------------------------------------------------------------------------

Intro:    M.V. Francisco  SJ

    G   C       D     Em  CM7          D     G   C     G   G     C

e|--------------3\5--3-------8-7-5-----5-----7-5----8--7----------------|
B|--0---1----3---------------------8-------------8----------------------|
G|----------------------------------------------------------------------|
D|----------------------------------------------------------------------|
A|----------------------------------------------------------------------|
E|----------------------------------------------------------------------|

                                                           Kunin mo ...

to complete Please use the Songbook ,92 (Gold)


-------------------------------------------------------------------------
	             Communion: I offer my life
-------------------------------------------------------------------------


Tabbed by: Don kng lim 
Email: dk_lim0507@yahoo.com

SFC songs

Tuning:Standard

Intro   Gm           C       F  Bb  C  Bb  

e|-----------3--5--5\7~ --5-3~ -----------------------------------------|
B|------3--6------------------------------------------------------------|
G|----------------------------------------------------------------------|
D|----------------------------------------------------------------------|
A|----------------------------------------------------------------------|
E|----------------------------------------------------------------------|

      F        Bb         C           Gm      F

e|-----1-1-1------6-6-6---3-3-3-3--5-5\6--5-3-3h5-----------------------|
B|---1---------3--------------------------------------------------------|
G|----------------------------------------------------------------------|
D|----------------------------------------------------------------------|
A|----------------------------------------------------------------------|
E|----------------------------------------------------------------------|
 
    Dm               Gm              Gm       F     Bb          Gm  C7  

e|---5\10--8-----------------------------3--5-5-3-3h6---6\8-8\10-8------|
B|------------10--8--8-10-10\11-10---3-3--------------------------------|
G|----------------------------------------------------------------------|
D|----------------------------------------------------------------------|
A|----------------------------------------------------------------------|
E|----------------------------------------------------------------------|

Chorus:
    F           Dm               Gm   F   Bb               C

e|--5--5--5-6--8-8-------------5-5 ---3---------------------------------|
B|------------------6-6---6--8-----3------3\6-6-6-6\8--8\10-8-----------|
G|----------------------------------------------------------------------|
D|----------------------------------------------------------------------|
A|----------------------------------------------------------------------|
E|----------------------------------------------------------------------|

    F           Dm               Gm   F   Bb            A7-Dm-Am

e|--5--5--5-6--8-8-------------5-5 ---3---------------------------------|
B|------------------6-6---6--8-----3------3\6-6-6 6\10--8-8~ -----------|
G|----------------------------------------------------------------------|
D|----------------------------------------------------------------------|
A|----------------------------------------------------------------------|
E|----------------------------------------------------------------------|

         Gm           C       F  Bb  C  Bb  

e|-----------3--5--5\7~ --5-3~ -----------------------------------------|
B|------3--6------------------------------------------------------------|
G|----------------------------------------------------------------------|
D|----------------------------------------------------------------------|
A|----------------------------------------------------------------------|
E|----------------------------------------------------------------------|

to complete Please use the Songbook ,51 (Gold)



| /  slide up
| \  slide down
| h  hammer-on
| p  pull-off
| ~  vibrato
| +  harmonic
| x  Mute note
===============================================================================
Related for Best Songs For Mass tab