Song name
# A B C D E F G H I J K L M N O P Q R S T U V W X Y Z

Misc Scales - Basic Sweep tab

Help us improve GuitareTab! Take a short survey!
-------------------------------------------------------------------------------
			     Basic Sweep - Contributed by Kevin Wells
-------------------------------------------------------------------------------
Tabbed by: Kevin Wells
Email:Noziamusic@hotmail.co.uk

Tuning:EBGDAE

e|------------10-------------------------------------------------------------|
B|--------11------11---------------------------------------------------------|
G|----12-------------12------------------------------------------------------|
D|-13--------------------13--------------------------------------------------|
A|---------------------------------------------------------------------------|
E|---------------------------------------------------------------------------|

This is the most basic sweep to begin learning how to sweep.
I have been learning how to improve on my sweeping for a while, and i find this one 
for speed and accuracy.


| /  slide up
| \  slide down
| h  hammer-on
| p  pull-off
| ~  vibrato
| +  harmonic
| x  Mute note
===============================================================================
Related for Basic Sweep tab