Guitaretab - guitar tabs
Song name
# A B C D E F G H I J K L M N O P Q R S T U V W X Y Z

Misc Scales - B Minor Pantonic Scale tab

e|-----------------------------------|----------------------------------|
b|-----------------------------------|---------------------7-10-7-------|
g|-----------------------------------|-----7-9-7-------7-9--------9-7-9-|
d|------------------------7-9-7------|-7-9-------9-7-9------------------|
a|-------7-9-7--------7-9-------9-7-9|----------------------------------|
E|--7-10-------10-7-10---------------|----------------------------------|
[ Tab from: http://www.guitaretab.com/m/misc-scales/183961.html ]
e|-------7-10-7---------7-10-7------------|---------------------------------|
b|--7-10--------10-7-10--------10-7-------|-7-10-7--------------------------|
g|----------------------------------9-7-9-|--------9-7-------7-9-7----------|
d|----------------------------------------|------------9-7-9-------9-7------|
a|----------------------------------------|----------------------------9-7-9|
E|----------------------------------------|---------------------------------|

e|------------------------------|
b|------------------------------|
g|------------------------------|
d|-7-9-7------------------------|
a|-------9-7---------7-9-7------|
E|-----------10-7-10-------10-7-|
Related for B Minor Pantonic Scale tab
Advertisement will be closed in 10 seconds