Song name
# A B C D E F G H I J K L M N O P Q R S T U V W X Y Z

Misc Scales - Sweep Excersice tab

-------------------------------------------------------------------------------
			     Easy Sweep - SCales
-------------------------------------------------------------------------------
Tabbed by:Chris Myers
Email:ninja_of_darkness32@yahoo.com

Tuning:Any tuning.( I use B-F#-B-E-G#-C# )
You can move this anywhere. It's just a pattern. It may resemble other patterns you 
I just find the patterns that use the same notes up and down are boring. This doesn't stay 
any particular key, but it can sound good to people who don't mind Chromatic scales.

e|-------12-14-15-----------------------|
B|-----13--------14---------------------|
G|---14------------13-------------------|
D|-15----------------12-14-15-----------|
A|--------------------------------------|
E|--------------------------------------|

It's built so if you're using all four fingers, you can continuously playing it in a 
Should make a sort of X formation with your motions. Can be repeated over and over again 
pause. Real easy, just start out slow and then get faster as you go.
Tap to rate this tab
 
# A B C D E F G H I J K L M N O P Q R S T U V W X Y Z