Song name
# A B C D E F G H I J K L M N O P Q R S T U V W X Y Z

Misc Scales - C Dorian tab

               Ascending
|--------------------------------------8-| 
|------------------------------8-10-11---| 
|-------------------------8-10-----------| 
|-----------------8-10-12----------------| 
|---------8-10-12------------------------| 
|-8-10-11--------------------------------| 


               Descending
|--------------------------------------|
|-11-10-8------------------------------|
|---------10-8-------------------------|
|--------------12-10-8-----------------|
|----------------------12-10-8---------|
|------------------------------11-10-8-|
Tap to rate this tab
# A B C D E F G H I J K L M N O P Q R S T U V W X Y Z