Misc Scales - Sweep Picking Arpeggios Excercises tab

             These are just two of my favorite arpeggiated warm up
exercices,please comment p.s- theres much more tabs to come, enjoy:)

E|--------12-17-12------------12-15-12------------12-13-12------------------|
B|------13--------13--------13--------13--------13--------13----------------|
G|-12-14------------14-12-14------------14-12-14------------14-12-14~~~-----|
D|--------------------------------------------------------------------------|
A|--------------------------------------------------------------------------|
E|--------------------------------------------------------------------------|

    (x4)     (x4)      (x4)          (x4)
E|-19-15-------15|-17-14-----14|-15-12------12-15|
B|------17---17--|-----15--15--|------13---13----|
G|--------16-----|-------14----|---------12------|
D|---------------|-------------|-----------------|
A|---------------|-------------|-----------------|
E|---------------|-------------|-----------------|
Tap to rate this tab
 
# A B C D E F G H I J K L M N O P Q R S T U V W X Y Z