Misc Scales - A Major Pentatonic Scale tab

-------------------------------------------------------------------------------
			     A Major Pentatonic scale
-------------------------------------------------------------------------------
Tabbed by: Eddie Gurney
Email: EddieGurney@hotmail.co.uk

Tuning:EADGBe

e|------------------------0-1-3-5--------------------------------------------|
B|------------------0-1-3----------------------------------------------------|
G|--------------0-2----------------------------------------------------------|
D|--------0-2-3--------------------------------------------------------------|
A|--0-2-3--------------------------------------------------------------------|
E|---------------------------------------------------------------------------|
Tap to rate this tab
 
# A B C D E F G H I J K L M N O P Q R S T U V W X Y Z