Song name
# A B C D E F G H I J K L M N O P Q R S T U V W X Y Z

Misc Scales - A Major Pentatonic tab

Hello:
I have been thinking this site needs a scales catagory; after all, that's what the basis of solos are. So everyone needs to submit different scales and examples to build a strong new catagory of scales.

A Major Pentatonic Scale

|-----------------------------2--5----------------|
|-----------------------2--5----------------------|
|-----------------2--4----------------------------|
|-----------2--4----------------------------------|
|--0--2--4----------------------------------------|
|-------------------------------------------------|


Using the scale for a lick

|-2--2h5p2--------------------------------------|
|-----------5--2h5p2----------------------------|
|---------------------4--2h4p4------------------|
|-------------------------------4--2h4p2--------|
|-----------------------------------------4-2b--|
|-----------------------------------------------|
Tap to rate this tab
# A B C D E F G H I J K L M N O P Q R S T U V W X Y Z