Song name
# A B C D E F G H I J K L M N O P Q R S T U V W X Y Z

Misc Scales - Hijaz Scale tab

e|--------------------------------------------------------------------------|
B|-----------------7-8-10-11-10-11-8-10-8-10-7-8-7-8------------------------|
G|-------------7-8-----------------------------------8-7--------------------|
D|-----4-5-7-8-------------------------------------------8-7\5-7-5-7-4-5-4-5|
A|-5-6----------------------------------------------------------------------|
D|0-------------------------------------------------------------------------|

e|---------------------------------------------------------------|
B|---------------------------------------------------------------|
G|---------------------------------------------------------------|
D|---------------------------------------------------------------|
A|6-5-3-5-6---------5\3/6\5--------------------------------------|
D|------------------------0--------------------------------------|

| /  slide up
| \  slide down
| h  hammer-on
| p  pull-off
| ~  vibrato
| +  harmonic
| x  Mute note

I hope you guys enjoy.
Tap to rate this tab
 
# A B C D E F G H I J K L M N O P Q R S T U V W X Y Z