Song name
# A B C D E F G H I J K L M N O P Q R S T U V W X Y Z

Misc Scales - A Minor Pentatonic tab

----------------------------------------------------------------------
			 A minor Pentatonic Scale 
----------------------------------------------------------------------

By:Jay Greene

e|------------------------------5--8--5----------------------------
B|------------------------5--8----------8--5-----------------------
G|-------------------5--7--------------------7--5------------------
D|--------------5--7-------------------------------7--5------------
A|---------5--7------------------------------------------7--5------
E|--5--8------------------------------------------------------8--5-
Tap to rate this tab
# A B C D E F G H I J K L M N O P Q R S T U V W X Y Z