Song name
# A B C D E F G H I J K L M N O P Q R S T U V W X Y Z

Misc Scales - Ritsu Scale C tab

Ritsu Scale
Japanese Scale with a Minor sound.  Notes: C, Db, Eb, F, Ab, Bb

Standard
 4/4
  Gtr I
|-------------------------------|-8-|-------------------------------*|
|--------------------------9-11-|---|-11-9--------------------------*|
|---------------------8-10------|---|------10-8---------------------*|
|-------------8-10-11-----------|---|-----------11-10-8-------------*|
|--------8-11-------------------|---|-------------------11-8--------*|
|-8-9-11------------------------|---|------------------------11-9-8-*|


 Extended
 4/4
  Gtr I
|----------------------------------------------16-18-|-20-|
|----------------------------------13-14-16-18-------|----|
|-------------------------10-13-15-------------------|----|
|----------------10-11-13----------------------------|----|
|--------8-11-13-------------------------------------|----|
|-8-9-11---------------------------------------------|----|


|-18-16-----------------------------------------------*|
|-------18-16-14-13-----------------------------------*|
|-------------------15-13-10--------------------------*|
|----------------------------13-11-10-----------------*|
|-------------------------------------13-11-8---------*|
|---------------------------------------------11-9-8--*|
Tap to rate this tab
# A B C D E F G H I J K L M N O P Q R S T U V W X Y Z