Song name
# A B C D E F G H I J K L M N O P Q R S T U V W X Y Z

Misc Scales - A Minor Pentatonic tab

----------------------------------------------------------------------------
                             A Minor Pentatonic scale
-----------------------------------------------------------------------------
Tabbed by:Unkreativ
E-mail:

Tuning:EADGBe

e|---------------------------------5--8------------------------------------|
B|---------------------------5--8------------------------------------------|
G|---------------------5--7------------------------------------------------|
D|---------------5--7------------------------------------------------------|
A|---------5--7------------------------------------------------------------|
E|---5--8------------------------------------------------------------------|

e|-------------------------------------8--10-------------------------------|
B|------------------------------8--10--------------------------------------|
G|------------------------7--9---------------------------------------------|
D|-----------------7--10---------------------------------------------------|
A|----------7--10----------------------------------------------------------|
E|---8--10-----------------------------------------------------------------|

e|-------------------------------------------10--12------------------------|
B|-----------------------------------10--12--------------------------------|
G|----------------------------9--12----------------------------------------|
D|--------------------10--12-----------------------------------------------|
A|------------10--12-------------------------------------------------------|
E|----10--12---------------------------------------------------------------|

e|--------------------------------------------12--15-----------------------|
B|------------------------------------12--15-------------------------------|
G|----------------------------12--14---------------------------------------|
D|--------------------12--14-----------------------------------------------|
A|------------12--14-------------------------------------------------------|
E|----12--15---------------------------------------------------------------|
Tap to rate this tab
# A B C D E F G H I J K L M N O P Q R S T U V W X Y Z