Song name
# A B C D E F G H I J K L M N O P Q R S T U V W X Y Z

Misc Scales - Blues Licks In Am tab

Just some random licks I wanted to share. As a side note only one of these is 
mine, that is number three, the others are not.

Tabbed by:daflame
E-mail:daflame@live.com.au

Lick #1

e|---5-----------------------------------------------------------------------|
B|------8b--5----------------------------------------------------------------|
G|-------------7b--7--5------------------------------------------------------|
D|-----------------------7~~~------------------------------------------------|
A|---------------------------------------------------------------------------|
E|---------------------------------------------------------------------------|

Lick #2

e|---------------------------------------------------------------------------|
B|--------------------------------------5------------------------------------|
G|----------------------------5--7--7b-----7b--7--5--------------------------|
D|----------------------5--7-------------------------7~~~--------------------|
A|---------3--5--7~~~~-------------------------------------------------------|
E|---3--5--------------------------------------------------------------------|

Lick #3

e|---------------------------------------------------------------------------|
B|---------------------------------------------------------------------------|
G|---8b--8b--8b--5--7--7-----------------------------------------------------|
D|------------------------7--------------------------------------------------|
A|---------------------------------------------------------------------------|
E|---------------------------------------------------------------------------|

Lick #4

e|---------------------------------------------------------------------------|
B|---------------------------------------------------------------------------|
G|--------------------------0------------------------------------------------|
D|------3-----0--------0h3--------3-----0------------------------------------|
A|------3-----0-------------------3-----0------------------------------------|
E|---3-----3-----3--3--3-------3-----3---------------------------------------|



************************************

| /   slide up
| \   slide down
| h   hammer-on
| p   pull-off
| ~   vibrato
| +   harmonic
| x   Mute note
| b   Bend
| pb  Pre-bend
| br  Bend release
| pbr Pre-bend release
| brb Bend release bend

************************************
Tap to rate this tab
# A B C D E F G H I J K L M N O P Q R S T U V W X Y Z