Song name
# A B C D E F G H I J K L M N O P Q R S T U V W X Y Z

Misc Scales - Blues Scale From E To D tab

E blues scale

e-------------------------------------0--3-|
B-------------------------------0--3-------|
G----------------------0--2--3-------------|
D----------------0--2----------------------|
A-------0--1--2----------------------------|
E-0--3-------------------------------------|
                   -or-
e--------------------------------------------12--15----|
B-------------------------------------12--15-----------|
G--------------------------12--14--15------------------|
D-------------------12--14-----------------------------|
A--------12--13--14------------------------------------|
E-12--15-----------------------------------------------|

F blues scale

e-------------------------------------1--4-|
B-------------------------------1--4-------|
G----------------------1--3--4-------------|
D----------------1--3----------------------|
A-------1--2--3----------------------------|
E-1--4-------------------------------------|
             -or-
e--------------------------------------------13--16----|
B-------------------------------------13--16-----------|
G--------------------------13--15--16------------------|
D-------------------13--15-----------------------------|
A--------13--14--15------------------------------------|
E-13--16-----------------------------------------------|

G blues scale

e-------------------------------------3--6--|
B-------------------------------3--6--------|
G----------------------3--5--6--------------|
D----------------3--5-----------------------|
A-------3--4--5-----------------------------|
E-3--6--------------------------------------|
                -or-
e--------------------------------------------15--18----|
B-------------------------------------15--18-----------|
G--------------------------15--17--18------------------|
D-------------------15--17-----------------------------|
A--------15--16--17------------------------------------|
E-15--18-----------------------------------------------|

A blues scale

e-------------------------------------5--8-|
B-------------------------------5--8-------|
G----------------------5--7--8-------------|
D----------------5--7----------------------|
A-------5--6--7----------------------------|
E-5--8-------------------------------------|
                -or-
e--------------------------------------------17--20----|
B-------------------------------------17--20-----------|
G--------------------------17--19--20------------------|
D-------------------17--19-----------------------------|
A--------17--18--19------------------------------------|
E-17--20-----------------------------------------------|

B blues scale

e---------------------------------------7--10-|
B--------------------------------7--10--------|
G----------------------7--9--10---------------|
D----------------7--9-------------------------|
A-------7--8--9-------------------------------|
E-7--10---------------------------------------|

C blues scale

e--------------------------------------8--11--|
B--------------------------------8--11--------|
G----------------------8--10--11--------------|
D----------------8--10------------------------|
A-------8--9--10------------------------------|
E-8--11---------------------------------------|


D blues scale

e--------------------------------------------10--13-----|
B-------------------------------------10--13------------|
G--------------------------10--12--13-------------------|
D-------------------10--12------------------------------|
A--------10--11--12-------------------------------------|
E-10--13------------------------------------------------|
Tap to rate this tab
# A B C D E F G H I J K L M N O P Q R S T U V W X Y Z