Song name
# A B C D E F G H I J K L M N O P Q R S T U V W X Y Z

Misc Scales - E Minor Scale tab

E Minor scale

Also G major

e|--------------------------------------------0--2--3-------------|
B|-----------------------------------0--2--3----------------------|
G|-----------------------------0--2-------------------------------|
D|--------------------0--2--4-------------------------------------|
A|-----------0--2--4----------------------------------------------|
E|--0--2--3-------------------------------------------------------|

e|--------------------------------------------2--3--5-------------|
B|-----------------------------------2--3--5----------------------|
G|-----------------------------2--4-------------------------------|
D|--------------------2--4--5-------------------------------------|
A|-----------2--4--5----------------------------------------------|
E|--2--3--5-------------------------------------------------------|

e|--------------------------------------------5--7----------------|
B|-----------------------------------5--7--8----------------------|
G|--------------------------4--6--7-------------------------------|
D|-----------------4--5--7----------------------------------------|
A|--------4--5--7-------------------------------------------------|
E|--5--7----------------------------------------------------------|

e|-----------------------------------------------7--9--10---------|
B|-------------------------------------7--8--10-------------------|
G|----------------------------6--7--9-----------------------------|
D|----------------------7--9--------------------------------------|
A|------------7--9--10--------------------------------------------|
E|--7--9--10------------------------------------------------------|

e|-----------------------------------------------------9--10--12--|
B|----------------------------------------------8--10-------------|
G|-----------------------------------9--11--12--------------------|
D|------------------------9--11--12-------------------------------|
A|-------------9--10--12------------------------------------------|
E|--9--10--12-----------------------------------------------------|
Tap to rate this tab
# A B C D E F G H I J K L M N O P Q R S T U V W X Y Z