Song name
# A B C D E F G H I J K L M N O P Q R S T U V W X Y Z

Misc Scales - D Minor Scale tab

D  minor scale.

Also F major

e|--------------------------------------------0--1--3----|
B|--------------------------------------1--3-------------|
G|-----------------------------0--2--3-------------------|
D|--------------------0--2--3----------------------------|
A|-----------0--1--3-------------------------------------|
E|--0--1--3----------------------------------------------|

e|--------------------------------------------3--5--6----|
B|-----------------------------------3--5--6-------------|
G|--------------------------2--3--5----------------------|
D|-----------------2--3--5-------------------------------|
A|-----------3--5----------------------------------------|
E|--3--5--6----------------------------------------------|

e|-----------------------------------------5--6--8-------|
B|--------------------------------5--6--8----------------|
G|--------------------------5--7-------------------------|
D|-----------------5--7--8-------------------------------|
A|--------5--7--8----------------------------------------|
E|--6--8-------------------------------------------------|

e|--------------------------------------------------8--10|
B|---------------------------------------8--10--11-------|
G|-----------------------------7--9--10------------------|
D|-------------------7--8--10----------------------------|
A|---------7--8--10--------------------------------------|
E|--8--10------------------------------------------------|
Tap to rate this tab
# A B C D E F G H I J K L M N O P Q R S T U V W X Y Z