Song name
# A B C D E F G H I J K L M N O P Q R S T U V W X Y Z

Misc Scales - C Major Scale tab

E||---------------------------------|---------------------------------|
B||--------------0-1-0--------------|---------------------------------|
G||----------0-2-------2-0----------|------------2-4-5-4-2------------|
D||----0-1-2---------------2-1-0----|------2-3-5-----------5-3-2------|
A||--3---------------------------3--|--3-5-----------------------5-3--|
E||---------------------------------|---------------------------------|


                                                                    
---------------------------------|---------------------------------|
---------------------------------|---------------------------------|
--------------4-5-4--------------|----------------5----------------|
--------3-5-7-------7-5-3--------|----------5-7-9---9-7-5----------|
--3-5-7-------------------7-5-3--|----5-7-8---------------8-7-5----|
---------------------------------|--8---------------------------8--|


                                       
--------------------------------------|
--------------------------------------|
--------------------------------------|
--------------7-9-10-9-7--------------|
-------7-8-10------------10-8-7-------|
--8-10--------------------------10-8--|


                                            
------------------------------------------||
------------------------------------------||
------------------------------------------||
------------------9-10-9------------------||
----------8-10-12--------12-10-8----------||
--8-10-12------------------------12-10-8--||
Tap to rate this tab
# A B C D E F G H I J K L M N O P Q R S T U V W X Y Z