Song name
# A B C D E F G H I J K L M N O P Q R S T U V W X Y Z

Misc Scales - Harmonic Minor tab

E||------------------------------------|
B||------------------------------------|
G||-------------------------7-9-10-9-7-|
D||----------------6-7-9-10------------|
A||----------5-7-8---------------------|
E||--4-5-7-8---------------------------|


                                           
------------------------------------10-12-|
-------------------------9-10-12-13-------|
------------------7-9-10------------------|
--10-9-7-6-7-9-10-------------------------|
------------------------------------------|
------------------------------------------|


                                           
--13-12-10--------------------------------|
-----------13-12-10-9---------------------|
----------------------10-9-7--------------|
-----------------------------10-9-7-6-7-9-|
------------------------------------------|
------------------------------------------|


                                                             
-------------------------------------|---------------------||
-------------------------------------|--------------1------||
-----7-9-10-9-7----------------------|--------------2------||
--10------------10-9-7-6-------------|--------------2------||
-------------------------8-7-5-------|-----------2--0------||
-------------------------------8-7-5-|--4--------0---------||
Tap to rate this tab
# A B C D E F G H I J K L M N O P Q R S T U V W X Y Z