Song name
# A B C D E F G H I J K L M N O P Q R S T U V W X Y Z

Misc Scales - E Japanese Scale tab

----------------------------------------------------------------------------
			     E japanese scale - misc scales
----------------------------------------------------------------------------
Tabbed by:steve the man!
Email:allchavsrgay@hotmail.com

Tuning:Eadgbe

This scale includes the notes E,F,A,B and C.

e|---------------------0-1-|---------------------5-|
B|-----------------0-1-----|-----------------5-6---|
G|---------------2---------|-----------2-4-5-------|
D|-----------2-3-----------|-------2-3-------------|
A|-----0-2-3---------------|---2-3-----------------|
E|-0-1---------------------|-5---------------------|

e|-----------------7-8-----|---------------------------8-10-|
B|---------------6---------|---------------------10-12------|
G|-------------9-----------|----------------9-10------------|
D|---------7-9-------------|-----------9-10-----------------|
A|-------8-----------------|------8-12----------------------|
E|-5-7-8-------------------|-8-12---------------------------|

Tap to rate this tab
# A B C D E F G H I J K L M N O P Q R S T U V W X Y Z