Song name
# A B C D E F G H I J K L M N O P Q R S T U V W X Y Z

Misc Scales - E Iwato Scale tab

---------------------------------------------------------------------------
			     E Iwato scale - misc scales
---------------------------------------------------------------------------
Tabbed by:steve the man.
Email:allchavsrgay@hotmail.com

Tuning:Eadgbe

e|---------------------0-1-|--------------------5-6------|
B|-------------------3-----|----------------5-6----------|
G|---------------2-3-------|------------3-7--------------|
D|---------0-2-3-----------|---------3-7-----------------|
A|-----0-1-----------------|-----5-7---------------------|
E|-0-1---------------------|-5-6-------------------------|

e|----------------------------10-12-----|
B|----------------------10-11-----------|
G|-----------------9-10-----------------|
D|------------8-12----------------------|
A|-------8-12---------------------------|
E|-10-12--------------------------------|
Tap to rate this tab
# A B C D E F G H I J K L M N O P Q R S T U V W X Y Z