Song name
# A B C D E F G H I J K L M N O P Q R S T U V W X Y Z

Misc Scales - Pelog Scale tab

Help us improve GuitareTab! Take a short survey!
----------------------------------------------------------------------------
			     Pelog scale - Misc scales
----------------------------------------------------------------------------
Tabbed by:steve the man
Email:allchavsrgay@hotmail.com

Tuning:standard

This scale includes the notes: E, F, G, B and D.

e|---------------------0-1-3-|---------------------3-------------------|
B|-----------------0-3-------|---------------3-5-6---------------------|
G|---------------0-----------|-------------4---------------------------|
D|---------0-2-3-------------|-------2-3-5-----------------------------|
A|-------2-------------------|---2-5-----------------------------------|
E|-0-1-3---------------------|-3---------------------------------------|

e|------------------------7-10-|-----------------------------10-12-13-|
B|----------------------8------|--------------------------12----------|
G|---------------7-9-10--------|------------------9-10-12-------------|
D|-------------9---------------|-------------9-12---------------------|
A|------7-8-10-----------------|----------10--------------------------|
E|-7-10------------------------|-10-12-13-----------------------------|
Related for Pelog Scale tab