Song name
# A B C D E F G H I J K L M N O P Q R S T U V W X Y Z

Misc Scales - E Hungarian Minor Scale tab

---------------------------------------------------------------------------
			     Hungarian minor scale - misc scales
---------------------------------------------------------------------------
Tabbed by:steve the man
Email:allchavsrgay@hotmail.com

Tuning:standard

This scale consistce of the notes:E, F#, G, A#, B, C, and D# .


e|-------------------------0-2-3-|-----------------------3-6-|
B|---------------------0-1-------|-------------------4-5-----|
G|-----------------0-3-----------|-------------3-4-5---------|
D|-------------1-2---------------|---------4-5---------------|
A|-------1-2-3-------------------|-----3-6-------------------|
E|-0-2-3-------------------------|-3-6-----------------------|

e|-------------------------6-7-8-|----------------------------------11-12-|
B|---------------------7-8-------|-------------------------11-12-13-------|
G|-----------------8-9-----------|-----------------9-11-12----------------|
D|-------------8-9---------------|------------10-9------------------------|
A|-------6-7-9-------------------|-------10-9-----------------------------|
E|-6-7-8-------------------------|-11-12----------------------------------|

Tap to rate this tab
 
# A B C D E F G H I J K L M N O P Q R S T U V W X Y Z