Song name
# A B C D E F G H I J K L M N O P Q R S T U V W X Y Z

Misc Scales - E Balinese tab

----------------------------------------------------------------------------
			     E balinese - misc scales
----------------------------------------------------------------------------
Tabbed by:steve the man
Email:allchavsrgay@hotmail.com

Tuning:standard

This scale contians the notes:E, F, G, B and C.

e|---------------------0-1-3-|---------------------3-7--|
B|-----------------0-1-------|-----------------5-6------|
G|---------------0-----------|-------------3-4----------|
D|-----------2-3-------------|---------3-5--------------|
A|-------2-3-----------------|-----3-7------------------|
E|-0-1-3---------------------|-3-7----------------------|

e|------------------------7-8-|-----------------------------12-14-|
B|----------------------8-----|----------------------12-13--------|
G|-----------------9-10-------|----------------10-12--------------|
D|------------9-10------------|----------10-14--------------------|
A|-----7-8-10-----------------|-------10--------------------------|
E|-7-8------------------------|-12-13-----------------------------|
Tap to rate this tab
# A B C D E F G H I J K L M N O P Q R S T U V W X Y Z