Song name
# A B C D E F G H I J K L M N O P Q R S T U V W X Y Z

Misc Scales - E Chinese Scale tab

----------------------------------------------------------------------------
			     Chinese scale - misc scales
----------------------------------------------------------------------------
Tabbed by:steve the man
Email:allchavsrgay@hotmail.com

Tuning:standard

This scale contians the notes:E, F#, G#, B and C# 

e|---------------0-2-|-------------------4-7---|
B|-----------0-2-----|---------------5-7-------|
G|---------1---------|-------------6-----------|
D|-------2-----------|---------4-6-------------|
A|-----2-------------|-----4-7-----------------|
E|-0-2---------------|-4-7---------------------|

e|---------------------7-9-|--------------------------9-12--|
B|-----------------7-9-----|---------------------9-12-------|
G|-------------6-9---------|----------------9-11------------|
D|---------6-9-------------|-----------9-11-----------------|
A|-----7-9-----------------|------9-11----------------------|
E|-7-9---------------------|-9-12---------------------------|
Tap to rate this tab
# A B C D E F G H I J K L M N O P Q R S T U V W X Y Z