Song name
# A B C D E F G H I J K L M N O P Q R S T U V W X Y Z

Misc Scales - Kumio Scale tab

----------------------------------------------------------------------------
			     Kumio scale - misc scales
----------------------------------------------------------------------------
Tabbed by:steve the man
Email:allchavsrgay@hotmail.com

Tuning:standard

This scale contians the notes:E, F, A, B and C

e|---------------------0-1-|---------------------5-7----|
B|-----------------0-1-----|-----------------5-6--------|
G|---------------2---------|-------------4-5------------|
D|-----------2-3-----------|---------3-7----------------|
A|-----0-2-3---------------|-----3-7--------------------|
E|-0-1---------------------|-5-7------------------------|

e|------------------------7-8-|-----------------------------12-13-|
B|---------------------10-----|--------------------10-12-13-------|
G|----------------9-10--------|---------------9-10----------------|
D|---------7-9-10-------------|----------9-10---------------------|
A|-----7-8--------------------|-------12--------------------------|
E|-7-8------------------------|-12-13-----------------------------|
Tap to rate this tab
 
# A B C D E F G H I J K L M N O P Q R S T U V W X Y Z