Song name
# A B C D E F G H I J K L M N O P Q R S T U V W X Y Z

Misc Scales - E Enigmatic Scale tab

Help us improve GuitareTab! Take a short survey!
----------------------------------------------------------------------------
			     Enigmatic - misc scales
----------------------------------------------------------------------------
Tabbed by:steve the man
Email:allchavsrgay@hotmail.com

Tuning:standard

This scale contians the notes:E, F, G#, A#, C, D and D#.

|-------------------------0-1-|--------------------------4-6-|
|---------------------1-3-----|------------------3-4-5-6-----|
|-----------------1-3---------|--------------5-6-------------|
|---------0-1-2-3-------------|----------3-6-----------------|
|-----1-3---------------------|----3-5-6---------------------|
|-0-1-------------------------|-4-6--------------------------|

|-----------------------6-8|-------------------------------------10-11-12-13
|------------------5-6-9---|--------------------------------11-13----------|
|-------------5-7-8--------|---------------------------10-13---------------|
|----------6-8-------------|----------------10-12-13-14--------------------|
|---5-6-7-8----------------|-----------11-13-------------------------------|
|6-8-----------------------|10-11-12-13------------------------------------|
Related for E Enigmatic Scale tab