Song name
# A B C D E F G H I J K L M N O P Q R S T U V W X Y Z

Misc Scales - E Mohammedan tab

----------------------------------------------------------------------------
			     E Mohanmmedan - Misc sclaes
----------------------------------------------------------------------------
Tabbed by:steve the man!
Email:allchavsrgay@hotmail.com

Tuning:Standard

This scale includes the notes:E F# G A B C and D#.

e|------------------------0-2-3-|-----------------------------2-3-5-|
B|--------------------0-1-------|-------------------------4-5-------|
G|-----------------0-2----------|-------------------2-4-5-----------|
D|-------------1-2--------------|-------------2-4-5-----------------|
A|-------0-2-3------------------|-------2-3-6-----------------------|
E|-0-2-3------------------------|-2-3-5-----------------------------|

e|-----------------------------5-7-8-|
B|-----------------------5-7-8-------|
G|-----------------4-5-8-------------|
D|-----------4-5-7-------------------|
A|-------6-7-------------------------|
E|-5-7-8-----------------------------|

e|----------------------------------------11-12----|
B|-------------------------------10-12-13----------|
G|-----------------------9-11-12-------------------|
D|---------------9-10-13---------------------------|
A|-------9-10-12-----------------------------------|
E|-11-12-------------------------------------------|
Tap to rate this tab
 
# A B C D E F G H I J K L M N O P Q R S T U V W X Y Z