Song name
# A B C D E F G H I J K L M N O P Q R S T U V W X Y Z

Misc Soundtrack - Pirates Of The Carribean Theme tab

e------------------------------------------------------------------|
b--------------------------------------------5-6-6-8-5-5-----------|
g--------------------------------3-----5-7-7-------------7-5-7-----|
d-------------------------------------7----------------------------|
a------------------------------------------------------------------|
e5-5-5-5-5-5-5-5-5-5-5-5-5-5-5-5-5---------------------------------|
                repeat all this once


e----------------5-6-6-5---5-------------5-------------------------|
b----------5-8-8---------8-------5-6-6-8------5-6-5-5--------------|
g----5-7-7-------------------7-7----------7------------7-5-7-------|
d--7---------------------------------------------------------------|
a------------------------------------------------------------------|
e------------------------------------------------------------------|

e--------------5/1-1---------------10-10-10-10-10-------------------|
b----5-6-6-8--------3-11-----------10-10-10-10-h11------------------|
g--7----------------------10-------10-10-10-10-10-------------------|
d-------------------------------------------------------------------|
a-------------------------------------------------------------------|
e----------------------------13-------------------------------------|


e--0-0--0-0-----10-10-10-10----0--0--5--0--------------------------|
b--8-8--8h10----10-10-10h11----8--6--5--6--------------10----------|
g--9-9--9-9-----10-10-10-10----9--7--5--7------9-10-10-----12-10-9-|
d--------------------------------------------12--------------------|
a------------------------------------------------------------------|
e------------------------------------------------------------------|

e------------------------------------------------------------------|
b-------10-------------10--8--10-8---------------------------------|
g-10-12----12--10--12--------------10-9-7-9-5-7--------------------|
d------------------------------------------------------------------|
a------------------------------------------------------------------|
e------------------------------------------------------------------|

by farmer759: hope you enjoy its not the entire song but its still sounds sweet.
Tap to rate this tab
# A B C D E F G H I J K L M N O P Q R S T U V W X Y Z