Song name
# A B C D E F G H I J K L M N O P Q R S T U V W X Y Z

Misc Soundtrack - The Devils Rejects - Fooled Around And Fell In Love tab

Intro:  F   Am   Eb   Bb
        F   Am   Eb   Bb

Verse:
F                                  Am
I must have been through about a million girls
Eb                              Bb
I'd love 'em and I'd leave 'em alone
F                            Am
I didn't care how much they cried, no sir
Eb                              Bb
Their tears left me cold as a stone


Chorus:
             F                        Am
But then I fooled around and fell in love
Eb                           Bb
I fooled around and fell in love
F                            Am
I fooled around and fell in love
Eb                           Bb
I fooled around and fell in love


[Play 2nd Verse] same chords as 1st verse


[Play Chorus]


Guitar Solo:  (2:25)
|-----------------------------------------------------------------------------|
|-----------------------------------------------------------------------------|
|--------------5--7-5-7b9-7--5-7-7s9~\---7-5-7h8p7-5--------------------------|
|-----3-5s7~------------------------------------------5s7-3-5---3~------3-----|
|-3-5---------------------------------------------------------5-----3-5---5\--|
|-----------------------------------------------------------------------------|

|-------------------------------------13-15-13-15b17=--15b17=--15b17=--13----|
|-------------------------------13-15----------------------------------------|
|----------------------10-12s14----------------------------------------------|
|------------10--10h12-------------------------------------------------------|
|----8-10s12-----------------------------------------------------------------|
|-/8-------------------------------------------------------------------------|

|-15b17=--13-15b17=--13-15b17=--13----13~---------13------------------------13-|
|----------------------------------15-------13-15------------------------------|
|----------------------------------------------------15\---------10-12b14==----|
|----------------------------------------------------------11h12---------------|
|---------------------------------------------------------x--------------------|
|------------------------------------------------------------------------------|

|---------------------------15b17===r--13--------------------------------------|
|-----------------------------------------13-15--------------------------------|
|-12pb14-10-12-10~----------------------------------14-13h14-------------------|
|-----------------------------------------------15-----------15--14-14---12----|
|---------------------------------------------------------------------------15-|
|------------------------------------------------------------------------------|

|---------------------------------------------------------13-----------------|
|------------------------------------------------------------13s15~\----8----|
|-----10-10-10-10------10-10-10-10-10-10------10-10-10-10-----------------10-|
|-/12--------------/12--------------------/12--------------------------------|
|----------------------------------------------------------------------------|
|----------------------------------------------------------------------------|

|----------------------------------------------------------------------------|
|-/13-13-13--/13-13-13--/13-13-13--/13-13-13--/13-13-13--/13-13-13--/17--17--|
|-/14-14-14--/14-14-14--/14-14-14--/14-14-14--/14-14-14--/14-14-14--/17--17--|
|----------------------------------------------------------------------------|
|----------------------------------------------------------------------------|
|----------------------------------------------------------------------------|

|----------------------------------------------------------|
|-/13-13-13---/11-11-11--/11-11-11--/11-11-11--/11-11-11---|
|-/14-14-14---/12-12-12--/12-12-12--/12-12-12--/12-12-12---|
|----------------------------------------------------------|
|----------------------------------------------------------|
|----------------------------------------------------------|

|-----6------5------3------1--------------|
|-----------------------------------------|
|-5s7----7-5----5-3----3-1----0-----------|
|-------------------------------3~--------|
|-----------------------------------------|
|-----------------------------------------|

Chords:
F:    133211
Am:   577555
Eb:   x68886
Bb:   688766

Legend:
s - slide
b - bend
pb - prebend
h - hammeron
p - pulloff
Tap to rate this tab
# A B C D E F G H I J K L M N O P Q R S T U V W X Y Z